Shop Mobile More Submit  Join Login
About Deviant Davo20/Male/Canada Group :iconthepsychedelictimes: ThePsychedelicTimes
Your Head Is Reeling
Recent Activity
Deviant for 7 Years
Needs Core Membership
Statistics 132 Deviations 1,588 Comments 13,393 Pageviews
×

Newest Deviations

two types of weakness :iconalecsocky:AlecSocky 1 0 Piggsy the badass :iconalecsocky:AlecSocky 3 0 Lucky boy :iconalecsocky:AlecSocky 2 0 piggsy was a cop :iconalecsocky:AlecSocky 2 0
Mature content
naughty piggsy :iconalecsocky:AlecSocky 1 0
gates of hell :iconalecsocky:AlecSocky 3 0 Black Flag :iconalecsocky:AlecSocky 5 0 i caught the cold :iconalecsocky:AlecSocky 1 0 ilovethetwo :iconalecsocky:AlecSocky 0 0 Piggsy is my GODDAMN LIFE :iconalecsocky:AlecSocky 2 0 Flossy Fu*ks :iconalecsocky:AlecSocky 1 0 Charmmy Now With A Rickenbacker :iconalecsocky:AlecSocky 1 1 Charmmy on a Crush :iconalecsocky:AlecSocky 2 3 Obession :iconalecsocky:AlecSocky 7 0 right on my guitar case :iconalecsocky:AlecSocky 1 1 Floss with Cheese late WIP :iconalecsocky:AlecSocky 2 3

Groups

  • Listening to: this song
  • Reading: i hate reading
  • Watching: Vinesauce
  • Playing: Dark Sauce
  • Drinking: Bubble tea
Jack King-Spooner's Soundcloud - soundcloud.com/jack-king-spoon…
This song took some time to find out what notes was being played, I had to find them by scratch and I believe
these are the actual tabs for this song. By all means have a listen.

www.youtube.com/watch?v=mtCQSp…

[Chorus]
                                                            "You came into our lives
d|-------------0------------------------0------------------------0------------------------4-----------|
A|-------0-------0----------------0-------0----------------0-------0----------------4-------4---------|
F|-----1---1-------1---1--------1---1-------1---1--------1---1-------1---1--------4---4-------4---4---|
C|---2-------2-------2---2----2-------2-------2---2----2-------2-------2---2----6-------6-------6---6-|
G|----------------------------------------------------------------------------------------------------|  
D|-0------------------------0------------------------0------------------------4-----------------------|


          "we pulled you from the ground"             "your eyes and ears were bleeding"
d|-------------0------------------------4-----------|---------------9-------------|
A|-------0-------0----------------4-------4---------|--------9--------9-----------|
F|-----1---1-------1---1--------4---4-------4---4---|------9---9--------9----9----|
C|---2-------2-------2---2----6-------6-------6---6-|---11-------11-------11---11-|x2
G|--------------------------------------------------|-----------------------------|
D|-0------------------------4-----------------------|-9---------------------------|

"and you were crying like a child"
d|-------------7-----------|
A|-------7-------7---------|
F|-----8---8-------8---8---|
C|---9-------9-------9---9-|
G|-------------------------|
D|-7-----------------------|

                                                            "You came into our House (?)"
d|-------------0------------------------0------------------------0------------------------4-----------|
A|-------0-------0----------------0-------0----------------0-------0----------------4-------4---------|
F|-----1---1-------1---1--------1---1-------1---1--------1---1-------1---1--------4---4-------4---4---|
C|---2-------2-------2---2----2-------2-------2---2----2-------2-------2---2----6-------6-------6---6-|
G|----------------------------------------------------------------------------------------------------|  
D|-0------------------------0------------------------0------------------------4-----------------------|


  "(still not sure what immediately follows)"      "You were biting at our fingers"
d|-------------0------------------------4-----------|---------------9-------------|
A|-------0-------0----------------4-------4---------|--------9--------9-----------|
F|-----1---1-------1---1--------4---4-------4---4---|------9---9--------9----9----|
C|---2-------2-------2---2----6-------6-------6---6-|---11-------11-------11---11-|x2
G|--------------------------------------------------|-----------------------------|
D|-0------------------------4-----------------------|-9---------------------------|

"and you were grinning like a madman"
d|-------------7-----------|
A|-------7-------7---------|
F|-----8---8-------8---8---|
C|---9-------9-------9---9-|
G|-------------------------|
D|-7-----------------------|

                                                            "We came into your life"
d|-------------0------------------------0------------------------0------------------------4-----------|
A|-------0-------0----------------0-------0----------------0-------0----------------4-------4---------|
F|-----1---1-------1---1--------1---1-------1---1--------1---1-------1---1--------4---4-------4---4---|
C|---2-------2-------2---2----2-------2-------2---2----2-------2-------2---2----6-------6-------6---6-|
G|----------------------------------------------------------------------------------------------------|  
D|-0------------------------0------------------------0------------------------4-----------------------|


          "you had no other choice"             "your eyes and ears were bleeding"
d|-------------0------------------------4-----------|---------------9-------------|
A|-------0-------0----------------4-------4---------|--------9--------9-----------|
F|-----1---1-------1---1--------4---4-------4---4---|------9---9--------9----9----|
C|---2-------2-------2---2----6-------6-------6---6-|---11-------11-------11---11-|x2
G|--------------------------------------------------|-----------------------------|
D|-0------------------------4-----------------------|-9---------------------------|

"you're (unintelligible)"
d|-------------7-----------|
A|-------7-------7---------|
F|-----8---8-------8---8---|
C|---9-------9-------9---9-|
G|-------------------------|
D|-7-----------------------|

[Outhrou]
  *The rest of the lyrics is distorted humming
d|-------------0------------------------0------------------------0------------------------4-----------|
A|-------0-------0----------------0-------0----------------0-------0----------------4-------4---------|
F|-----1---1-------1---1--------1---1-------1---1--------1---1-------1---1--------4---4-------4---4---|
C|---2-------2-------2---2----2-------2-------2---2----2-------2-------2---2----6-------6-------6---6-|
G|----------------------------------------------------------------------------------------------------|  
D|-0------------------------0------------------------0------------------------4-----------------------|


                     
d|-------------0------------------------4-----------|---------------9-------------|
A|-------0-------0----------------4-------4---------|--------9--------9-----------|
F|-----1---1-------1---1--------4---4-------4---4---|------9---9--------9----9----|
C|---2-------2-------2---2----6-------6-------6---6-|---11-------11-------11---11-|x2
G|--------------------------------------------------|-----------------------------|
D|-0------------------------4-----------------------|-9---------------------------|


d|-------------7-----------|---------0--12h|
A|-------7-------7---------|-------0-------|
F|-----8---8-------8---8---|-----1---------|
C|---9-------9-------9---9-|---2-----------|
G|-------------------------|---------------|
D|-7-----------------------|-0-------------|



************************************
| h   Harmonic
************************************

deviantID

AlecSocky
Davo
Canada
I hate myself more than you.
Interests

Donate

AlecSocky has started a donation pool!
60 / 60
I DID IT!!

You must be logged in to donate.
  • Anonymous
    Anonymous Deviant
    Donated May 9, 2014, 1:10:01 AM
    34
  • Anonymous
    Anonymous Deviant
    Donated Aug 22, 2012, 10:17:45 PM
    21
  • :iconprimavistax:
    primavistax
    Donated Jul 8, 2012, 2:56:08 AM
    5

Friends

Comments


Add a Comment:
 
:iconmaniamama:
Maniamama Featured By Owner Apr 7, 2017  Hobbyist Digital Artist
Thanks you for the fave
Reply
:icondeviantmediocrity:
DeviantMediocrity Featured By Owner Jan 21, 2017  Hobbyist Artist
Love your work.
Reply
:iconalecsocky:
AlecSocky Featured By Owner Dec 24, 2016
And vice versa.
Reply
:iconcaiogomides:
CaioGomides Featured By Owner Dec 24, 2016  Student Digital Artist
Thanks for the fave! Watch me if you like my artwork! :D
Reply
:iconechoplexsermon:
EchoplexSermon Featured By Owner Nov 30, 2016  Professional Traditional Artist
Thanks for the favourites. :wave:
Reply
Add a Comment: